ISO-10303-21;
HEADER;
FILE_DESCRIPTION (( 'STEP AP203' ),
    '1' );
FILE_NAME ('BK7-LPBSC-10-780.STEP',
    '2020-12-22T03:10:31',
    ( '' ),
    ( '' ),
    'SwSTEP 2.0',
    'SolidWorks 2020',
    '' );
FILE_SCHEMA (( 'CONFIG_CONTROL_DESIGN' ));
ENDSEC;

DATA;
#1 = EDGE_LOOP ( 'NONE', ( #17, #143, #2 ) ) ;
#2 = ORIENTED_EDGE ( 'NONE', *, *, #138, .T. ) ;
#3 = CARTESIAN_POINT ( 'NONE',  ( -4.999999999999999112, -5.000000000000000000, -5.000000000000000000 ) ) ;
#4 = CARTESIAN_POINT ( 'NONE',  ( -4.999999999999999112, -5.000000000000000000, 5.000000000000000000 ) ) ;
#5 = DIRECTION ( 'NONE',  ( 0.000000000000000000, 0.000000000000000000, 1.000000000000000000 ) ) ;
#6 = FACE_OUTER_BOUND ( 'NONE', #1, .T. ) ;
#7 = DIRECTION ( 'NONE',  ( -0.7071067811865475727, -0.7071067811865474617, 0.000000000000000000 ) ) ;
#8 = VERTEX_POINT ( 'NONE', #27 ) ;
#9 = DIRECTION ( 'NONE',  ( -1.000000000000000000, 1.734723475976807094E-16, 0.000000000000000000 ) ) ;
#10 = DIRECTION ( 'NONE',  ( 0.7071067811865474617, -0.7071067811865475727, 0.000000000000000000 ) ) ;
#11 = LINE ( 'NONE', #212, #153 ) ;
#12 = CC_DESIGN_PERSON_AND_ORGANIZATION_ASSIGNMENT ( #28, #119, ( #164 ) ) ;
#13 = FACE_OUTER_BOUND ( 'NONE', #309, .T. ) ;
#14 = AXIS2_PLACEMENT_3D ( 'NONE', #205, #74, #252 ) ;
#15 = ADVANCED_FACE ( 'NONE', ( #6 ), #100, .T. ) ;
#16 = DIRECTION ( 'NONE',  ( 0.000000000000000000, -0.000000000000000000, 1.000000000000000000 ) ) ;
#17 = ORIENTED_EDGE ( 'NONE', *, *, #216, .T. ) ;
#18 = APPROVAL_DATE_TIME ( #162, #215 ) ;
#19 = VERTEX_POINT ( 'NONE', #307 ) ;
#20 = DATE_AND_TIME ( #109, #199 ) ;
#21 = PRODUCT_RELATED_PRODUCT_CATEGORY ( 'detail', '', ( #172 ) ) ;
#22 = EDGE_CURVE ( 'NONE', #137, #23, #52, .T. ) ;
#23 = VERTEX_POINT ( 'NONE', #3 ) ;
#24 = DATE_TIME_ROLE ( 'creation_date' ) ;
#25 = ORIENTED_EDGE ( 'NONE', *, *, #22, .F. ) ;
#26 = APPROVAL_STATUS ( 'not_yet_approved' ) ;
#27 = CARTESIAN_POINT ( 'NONE',  ( 5.000000000000002665, 5.000000000000000000, -5.000000000000000000 ) ) ;
#28 = PERSON_AND_ORGANIZATION ( #75, #209 ) ;
#29 = LOCAL_TIME ( 11, 10, 31.00000000000000000, #114 ) ;
#30 = ORIENTED_EDGE ( 'NONE', *, *, #138, .F. ) ;
#31 = EDGE_CURVE ( 'NONE', #221, #145, #73, .T. ) ;
#32 = DIRECTION ( 'NONE',  ( -0.000000000000000000, 0.000000000000000000, -1.000000000000000000 ) ) ;
#33 = LINE ( 'NONE', #123, #82 ) ;
#34 = ADVANCED_FACE ( 'NONE', ( #122 ), #255, .F. ) ;
#35 = VECTOR ( 'NONE', #7, 1000.000000000000000 ) ;
#36 = DIRECTION ( 'NONE',  ( -0.7071067811865475727, -0.7071067811865474617, 0.000000000000000000 ) ) ;
#37 =( GEOMETRIC_REPRESENTATION_CONTEXT ( 3 ) GLOBAL_UNCERTAINTY_ASSIGNED_CONTEXT ( ( #134 ) ) GLOBAL_UNIT_ASSIGNED_CONTEXT ( ( #238, #183, #292 ) ) REPRESENTATION_CONTEXT ( 'NONE', 'WORKASPACE' ) );
#38 = DIRECTION ( 'NONE',  ( 2.220446049250313081E-16, 1.000000000000000000, 0.000000000000000000 ) ) ;
#39 = CARTESIAN_POINT ( 'NONE',  ( -5.000000000000000888, -4.999999999999998224, 5.000000000000000000 ) ) ;
#40 = PLANE ( 'NONE',  #220 ) ;
#41 = ORIENTED_EDGE ( 'NONE', *, *, #204, .F. ) ;
#42 = CALENDAR_DATE ( 2020, 22, 12 ) ;
#43 = ORIENTED_EDGE ( 'NONE', *, *, #241, .F. ) ;
#44 = PERSON_AND_ORGANIZATION_ROLE ( 'design_owner' ) ;
#45 = DIRECTION ( 'NONE',  ( -1.734723475976807094E-16, -1.000000000000000000, 0.000000000000000000 ) ) ;
#46 = ORIENTED_EDGE ( 'NONE', *, *, #106, .F. ) ;
#47 = APPLICATION_PROTOCOL_DEFINITION ( 'international standard', 'config_control_design', 1994, #239 ) ;
#48 = CARTESIAN_POINT ( 'NONE',  ( -5.000000000000000888, -4.999999999999998224, 5.000000000000000000 ) ) ;
#49 = EDGE_CURVE ( 'NONE', #165, #226, #102, .T. ) ;
#50 = EDGE_LOOP ( 'NONE', ( #46, #175, #71 ) ) ;
#51 = VECTOR ( 'NONE', #32, 1000.000000000000000 ) ;
#52 = LINE ( 'NONE', #303, #191 ) ;
#53 = APPROVAL_PERSON_ORGANIZATION ( #70, #235, #140 ) ;
#54 = CARTESIAN_POINT ( 'NONE',  ( 0.000000000000000000, 0.000000000000000000, -5.000000000000000000 ) ) ;
#55 = DIRECTION ( 'NONE',  ( 1.734723475976807094E-16, 1.000000000000000000, -0.000000000000000000 ) ) ;
#56 = CARTESIAN_POINT ( 'NONE',  ( -4.999999999999999112, -5.000000000000000000, 5.000000000000000000 ) ) ;
#57 = EDGE_CURVE ( 'NONE', #229, #297, #228, .T. ) ;
#58 = DIRECTION ( 'NONE',  ( 1.000000000000000000, 0.000000000000000000, 0.000000000000000000 ) ) ;
#59 = LINE ( 'NONE', #85, #141 ) ;
#60 = CC_DESIGN_DATE_AND_TIME_ASSIGNMENT ( #20, #111, ( #247 ) ) ;
#61 = DIRECTION ( 'NONE',  ( -0.7071067811865474617, 0.7071067811865475727, 0.000000000000000000 ) ) ;
#62 = CC_DESIGN_SECURITY_CLASSIFICATION ( #247, ( #164 ) ) ;
#63 = CARTESIAN_POINT ( 'NONE',  ( -5.000000000000000888, -4.999999999999998224, 5.000000000000000000 ) ) ;
#64 = EDGE_LOOP ( 'NONE', ( #246, #115, #30, #318 ) ) ;
#65 = PERSON_AND_ORGANIZATION ( #75, #209 ) ;
#66 = APPROVAL ( #278, 'UNSPECIFIED' ) ;
#67 = VECTOR ( 'NONE', #55, 1000.000000000000000 ) ;
#68 = EDGE_LOOP ( 'NONE', ( #275, #43, #253 ) ) ;
#69 = CALENDAR_DATE ( 2020, 22, 12 ) ;
#70 = PERSON_AND_ORGANIZATION ( #75, #209 ) ;
#71 = ORIENTED_EDGE ( 'NONE', *, *, #320, .F. ) ;
#72 = MECHANICAL_CONTEXT ( 'NONE', #239, 'mechanical' ) ;
#73 = LINE ( 'NONE', #48, #51 ) ;
#74 = DIRECTION ( 'NONE',  ( -0.000000000000000000, 0.000000000000000000, 1.000000000000000000 ) ) ;
#75 = PERSON ( 'UNSPECIFIED', 'UNSPECIFIED', 'UNSPECIFIED', ('UNSPECIFIED'), ('UNSPECIFIED'), ('UNSPECIFIED') ) ;
#76 = LOCAL_TIME ( 11, 10, 31.00000000000000000, #88 ) ;
#77 = ADVANCED_FACE ( 'NONE', ( #146 ), #103, .F. ) ;
#78 = PLANE ( 'NONE',  #182 ) ;
#79 = FACE_OUTER_BOUND ( 'NONE', #167, .T. ) ;
#80 = DIRECTION ( 'NONE',  ( 1.000000000000000000, 0.000000000000000000, 0.000000000000000000 ) ) ;
#81 = PRODUCT_DEFINITION_SHAPE ( 'NONE', 'NONE',  #256 ) ;
#82 = VECTOR ( 'NONE', #124, 1000.000000000000000 ) ;
#83 = VECTOR ( 'NONE', #156, 1000.000000000000000 ) ;
#84 = EDGE_CURVE ( 'NONE', #272, #165, #264, .T. ) ;
#85 = CARTESIAN_POINT ( 'NONE',  ( -5.000000000000000888, -4.999999999999998224, 5.000000000000000000 ) ) ;
#86 = PLANE ( 'NONE',  #249 ) ;
#87 = ADVANCED_FACE ( 'NONE', ( #79 ), #280, .F. ) ;
#88 = COORDINATED_UNIVERSAL_TIME_OFFSET ( 8, 0, .AHEAD. ) ;
#89 = DIRECTION ( 'NONE',  ( 0.7071067811865475727, 0.7071067811865474617, 0.000000000000000000 ) ) ;
#90 = APPROVAL_STATUS ( 'not_yet_approved' ) ;
#91 = ADVANCED_FACE ( 'NONE', ( #261 ), #78, .T. ) ;
#92 = EDGE_LOOP ( 'NONE', ( #207, #25, #98, #299 ) ) ;
#93 = COORDINATED_UNIVERSAL_TIME_OFFSET ( 8, 0, .AHEAD. ) ;
#94 = PERSON_AND_ORGANIZATION_ROLE ( 'creator' ) ;
#95 = AXIS2_PLACEMENT_3D ( 'NONE', #116, #5, #251 ) ;
#96 = ORIENTED_EDGE ( 'NONE', *, *, #22, .T. ) ;
#97 = DIRECTION ( 'NONE',  ( -4.857225732735059864E-17, -1.000000000000000000, 0.000000000000000000 ) ) ;
#98 = ORIENTED_EDGE ( 'NONE', *, *, #216, .F. ) ;
#99 = PERSON_AND_ORGANIZATION ( #75, #209 ) ;
#100 = PLANE ( 'NONE',  #14 ) ;
#101 = CARTESIAN_POINT ( 'NONE',  ( -5.000000000000000888, -4.999999999999998224, -5.000000000000000000 ) ) ;
#102 = LINE ( 'NONE', #200, #131 ) ;
#103 = PLANE ( 'NONE',  #185 ) ;
#104 = LINE ( 'NONE', #201, #311 ) ;
#105 = CARTESIAN_POINT ( 'NONE',  ( -4.999999999999999112, 5.000000000000001776, -5.000000000000000000 ) ) ;
#106 = EDGE_CURVE ( 'NONE', #8, #23, #257, .T. ) ;
#107 = LINE ( 'NONE', #132, #83 ) ;
#108 = ORIENTED_EDGE ( 'NONE', *, *, #263, .T. ) ;
#109 = CALENDAR_DATE ( 2020, 22, 12 ) ;
#110 = ORIENTED_EDGE ( 'NONE', *, *, #263, .F. ) ;
#111 = DATE_TIME_ROLE ( 'classification_date' ) ;
#112 = ORIENTED_EDGE ( 'NONE', *, *, #31, .F. ) ;
#113 = SHAPE_DEFINITION_REPRESENTATION ( #81, #314 ) ;
#114 = COORDINATED_UNIVERSAL_TIME_OFFSET ( 8, 0, .AHEAD. ) ;
#115 = ORIENTED_EDGE ( 'NONE', *, *, #274, .F. ) ;
#116 = CARTESIAN_POINT ( 'NONE',  ( 0.000000000000000000, 0.000000000000000000, 0.000000000000000000 ) ) ;
#117 = DIRECTION ( 'NONE',  ( -0.000000000000000000, -0.000000000000000000, -1.000000000000000000 ) ) ;
#118 = EDGE_LOOP ( 'NONE', ( #110, #112, #260, #202 ) ) ;
#119 = PERSON_AND_ORGANIZATION_ROLE ( 'creator' ) ;
#120 = LOCAL_TIME ( 11, 10, 31.00000000000000000, #198 ) ;
#121 = PERSON_AND_ORGANIZATION ( #75, #209 ) ;
#122 = FACE_OUTER_BOUND ( 'NONE', #64, .T. ) ;
#123 = CARTESIAN_POINT ( 'NONE',  ( 5.000000000000000888, 5.000000000000001776, 5.000000000000000000 ) ) ;
#124 = DIRECTION ( 'NONE',  ( -0.000000000000000000, 0.000000000000000000, -1.000000000000000000 ) ) ;
#125 = LINE ( 'NONE', #150, #290 ) ;
#126 = AXIS2_PLACEMENT_3D ( 'NONE', #133, #61, #89 ) ;
#127 = LINE ( 'NONE', #152, #67 ) ;
#128 = LINE ( 'NONE', #217, #158 ) ;
#129 = CC_DESIGN_PERSON_AND_ORGANIZATION_ASSIGNMENT ( #121, #223, ( #247 ) ) ;
#130 = EDGE_CURVE ( 'NONE', #147, #226, #33, .T. ) ;
#131 = VECTOR ( 'NONE', #279, 1000.000000000000000 ) ;
#132 = CARTESIAN_POINT ( 'NONE',  ( -4.999999999999999112, -5.000000000000000000, -5.000000000000000000 ) ) ;
#133 = CARTESIAN_POINT ( 'NONE',  ( 5.000000000000000888, 5.000000000000001776, 5.000000000000000000 ) ) ;
#134 = UNCERTAINTY_MEASURE_WITH_UNIT (LENGTH_MEASURE( 1.000000000000000082E-05 ), #238, 'distance_accuracy_value', 'NONE');
#135 = EDGE_CURVE ( 'NONE', #147, #221, #104, .T. ) ;
#136 = CARTESIAN_POINT ( 'NONE',  ( 5.000000000000000888, 5.000000000000001776, 5.000000000000000000 ) ) ;
#137 = VERTEX_POINT ( 'NONE', #56 ) ;
#138 = EDGE_CURVE ( 'NONE', #229, #19, #125, .T. ) ;
#139 = CC_DESIGN_PERSON_AND_ORGANIZATION_ASSIGNMENT ( #224, #94, ( #256 ) ) ;
#140 = APPROVAL_ROLE ( '' ) ;
#141 = VECTOR ( 'NONE', #213, 1000.000000000000000 ) ;
#142 = ORIENTED_EDGE ( 'NONE', *, *, #320, .T. ) ;
#143 = ORIENTED_EDGE ( 'NONE', *, *, #204, .T. ) ;
#144 = PERSON_AND_ORGANIZATION ( #75, #209 ) ;
#145 = VERTEX_POINT ( 'NONE', #101 ) ;
#146 = FACE_OUTER_BOUND ( 'NONE', #92, .T. ) ;
#147 = VERTEX_POINT ( 'NONE', #310 ) ;
#148 = CLOSED_SHELL ( 'NONE', ( #77, #287, #34, #15, #166 ) ) ;
#149 = APPLICATION_PROTOCOL_DEFINITION ( 'international standard', 'config_control_design', 1994, #258 ) ;
#150 = CARTESIAN_POINT ( 'NONE',  ( 5.000000000000002665, 5.000000000000000000, 5.000000000000000000 ) ) ;
#151 = CARTESIAN_POINT ( 'NONE',  ( 5.000000000000000888, -5.000000000000000000, 5.000000000000000000 ) ) ;
#152 = CARTESIAN_POINT ( 'NONE',  ( 5.000000000000002665, 5.000000000000000000, -5.000000000000000000 ) ) ;
#153 = VECTOR ( 'NONE', #313, 1000.000000000000000 ) ;
#154 = LOCAL_TIME ( 11, 10, 31.00000000000000000, #93 ) ;
#155 = FACE_OUTER_BOUND ( 'NONE', #174, .T. ) ;
#156 = DIRECTION ( 'NONE',  ( 1.000000000000000000, 0.000000000000000000, 0.000000000000000000 ) ) ;
#157 = CARTESIAN_POINT ( 'NONE',  ( 5.000000000000002665, 5.000000000000000000, 5.000000000000000000 ) ) ;
#158 = VECTOR ( 'NONE', #291, 1000.000000000000000 ) ;
#159 = DIRECTION ( 'NONE',  ( 2.220446049250313081E-16, 1.000000000000000000, 0.000000000000000000 ) ) ;
#160 = CC_DESIGN_PERSON_AND_ORGANIZATION_ASSIGNMENT ( #99, #44, ( #172 ) ) ;
#161 = EDGE_CURVE ( 'NONE', #297, #8, #127, .T. ) ;
#162 = DATE_AND_TIME ( #189, #76 ) ;
#163 = FACE_OUTER_BOUND ( 'NONE', #118, .T. ) ;
#164 = PRODUCT_DEFINITION_FORMATION_WITH_SPECIFIED_SOURCE ( 'ANY', '', #172, .NOT_KNOWN. ) ;
#165 = VERTEX_POINT ( 'NONE', #105 ) ;
#166 = ADVANCED_FACE ( 'NONE', ( #233 ), #289, .F. ) ;
#167 = EDGE_LOOP ( 'NONE', ( #222, #108, #170 ) ) ;
#168 = DATE_AND_TIME ( #254, #29 ) ;
#169 = AXIS2_PLACEMENT_3D ( 'NONE', #54, #312, #208 ) ;
#170 = ORIENTED_EDGE ( 'NONE', *, *, #49, .T. ) ;
#171 = EDGE_CURVE ( 'NONE', #226, #145, #11, .T. ) ;
#172 = PRODUCT ( 'BK7-LPBSC-10-780', 'BK7-LPBSC-10-780', '', ( #72 ) ) ;
#173 = ORIENTED_EDGE ( 'NONE', *, *, #84, .F. ) ;
#174 = EDGE_LOOP ( 'NONE', ( #195, #173, #193, #271 ) ) ;
#175 = ORIENTED_EDGE ( 'NONE', *, *, #161, .F. ) ;
#176 = DATE_AND_TIME ( #69, #154 ) ;
#177 = DIRECTION ( 'NONE',  ( -0.000000000000000000, 0.000000000000000000, -1.000000000000000000 ) ) ;
#178 = DIRECTION ( 'NONE',  ( -0.000000000000000000, -0.000000000000000000, -1.000000000000000000 ) ) ;
#179 = MANIFOLD_SOLID_BREP ( 'Í¹Ì¨-À', #148 ) ;
#180 = DIRECTION ( 'NONE',  ( 0.7071067811865475727, 0.7071067811865474617, 0.000000000000000000 ) ) ;
#181 = LINE ( 'NONE', #4, #284 ) ;
#182 = AXIS2_PLACEMENT_3D ( 'NONE', #286, #265, #38 ) ;
#183 =( NAMED_UNIT ( * ) PLANE_ANGLE_UNIT ( ) SI_UNIT ( $, .RADIAN. ) );
#184 = DIRECTION ( 'NONE',  ( 1.000000000000000000, -2.220446049250313081E-16, 0.000000000000000000 ) ) ;
#185 = AXIS2_PLACEMENT_3D ( 'NONE', #262, #10, #180 ) ;
#186 = FACE_OUTER_BOUND ( 'NONE', #306, .T. ) ;
#187 = CARTESIAN_POINT ( 'NONE',  ( 5.000000000000000888, -5.000000000000000000, -5.000000000000000000 ) ) ;
#188 = ORIENTED_EDGE ( 'NONE', *, *, #57, .F. ) ;
#189 = CALENDAR_DATE ( 2020, 22, 12 ) ;
#190 = CC_DESIGN_PERSON_AND_ORGANIZATION_ASSIGNMENT ( #203, #281, ( #164 ) ) ;
#191 = VECTOR ( 'NONE', #117, 1000.000000000000000 ) ;
#192 = APPROVAL_PERSON_ORGANIZATION ( #144, #66, #302 ) ;
#193 = ORIENTED_EDGE ( 'NONE', *, *, #241, .T. ) ;
#194 = COORDINATED_UNIVERSAL_TIME_OFFSET ( 8, 0, .AHEAD. ) ;
#195 = ORIENTED_EDGE ( 'NONE', *, *, #49, .F. ) ;
#196 = VECTOR ( 'NONE', #177, 1000.000000000000000 ) ;
#197 = ORIENTED_EDGE ( 'NONE', *, *, #135, .T. ) ;
#198 = COORDINATED_UNIVERSAL_TIME_OFFSET ( 8, 0, .AHEAD. ) ;
#199 = LOCAL_TIME ( 11, 10, 31.00000000000000000, #194 ) ;
#200 = CARTESIAN_POINT ( 'NONE',  ( 5.000000000000000888, 5.000000000000001776, -5.000000000000000000 ) ) ;
#201 = CARTESIAN_POINT ( 'NONE',  ( 5.000000000000000888, 5.000000000000001776, 5.000000000000000000 ) ) ;
#202 = ORIENTED_EDGE ( 'NONE', *, *, #84, .T. ) ;
#203 = PERSON_AND_ORGANIZATION ( #75, #209 ) ;
#204 = EDGE_CURVE ( 'NONE', #137, #229, #181, .T. ) ;
#205 = CARTESIAN_POINT ( 'NONE',  ( 0.000000000000000000, 0.000000000000000000, 5.000000000000000000 ) ) ;
#206 = PLANE ( 'NONE',  #321 ) ;
#207 = ORIENTED_EDGE ( 'NONE', *, *, #106, .T. ) ;
#208 = DIRECTION ( 'NONE',  ( 2.220446049250313081E-16, 1.000000000000000000, 0.000000000000000000 ) ) ;
#209 = ORGANIZATION ( 'UNSPECIFIED', 'UNSPECIFIED', '' ) ;
#210 = ADVANCED_FACE ( 'NONE', ( #155 ), #206, .F. ) ;
#211 = CARTESIAN_POINT ( 'NONE',  ( 0.000000000000000000, 0.000000000000000000, -5.000000000000000000 ) ) ;
#212 = CARTESIAN_POINT ( 'NONE',  ( 5.000000000000000888, 5.000000000000001776, -5.000000000000000000 ) ) ;
#213 = DIRECTION ( 'NONE',  ( 2.220446049250313081E-16, 1.000000000000000000, 0.000000000000000000 ) ) ;
#214 = VECTOR ( 'NONE', #178, 1000.000000000000000 ) ;
#215 = APPROVAL ( #90, 'UNSPECIFIED' ) ;
#216 = EDGE_CURVE ( 'NONE', #19, #137, #128, .T. ) ;
#217 = CARTESIAN_POINT ( 'NONE',  ( 5.000000000000002665, 5.000000000000000000, 5.000000000000000000 ) ) ;
#218 = DESIGN_CONTEXT ( 'detailed design', #258, 'design' ) ;
#219 = DIRECTION ( 'NONE',  ( 1.000000000000000000, -4.857225732735059864E-17, 0.000000000000000000 ) ) ;
#220 = AXIS2_PLACEMENT_3D ( 'NONE', #268, #242, #16 ) ;
#221 = VERTEX_POINT ( 'NONE', #39 ) ;
#222 = ORIENTED_EDGE ( 'NONE', *, *, #171, .T. ) ;
#223 = PERSON_AND_ORGANIZATION_ROLE ( 'classification_officer' ) ;
#224 = PERSON_AND_ORGANIZATION ( #75, #209 ) ;
#225 = ORIENTED_EDGE ( 'NONE', *, *, #31, .T. ) ;
#226 = VERTEX_POINT ( 'NONE', #243 ) ;
#227 = APPROVAL_DATE_TIME ( #168, #66 ) ;
#228 = LINE ( 'NONE', #151, #214 ) ;
#229 = VERTEX_POINT ( 'NONE', #315 ) ;
#230 = VECTOR ( 'NONE', #266, 1000.000000000000000 ) ;
#231 = CARTESIAN_POINT ( 'NONE',  ( 5.000000000000002665, 5.000000000000000000, 5.000000000000000000 ) ) ;
#232 = DIRECTION ( 'NONE',  ( 1.734723475976807094E-16, 1.000000000000000000, -0.000000000000000000 ) ) ;
#233 = FACE_OUTER_BOUND ( 'NONE', #50, .T. ) ;
#234 = APPROVAL_PERSON_ORGANIZATION ( #65, #215, #319 ) ;
#235 = APPROVAL ( #26, 'UNSPECIFIED' ) ;
#236 = ADVANCED_FACE ( 'NONE', ( #163 ), #86, .F. ) ;
#237 = DIRECTION ( 'NONE',  ( -0.000000000000000000, 0.000000000000000000, 1.000000000000000000 ) ) ;
#238 =( LENGTH_UNIT ( ) NAMED_UNIT ( * ) SI_UNIT ( .MILLI., .METRE. ) );
#239 = APPLICATION_CONTEXT ( 'configuration controlled 3d designs of mechanical parts and assemblies' ) ;
#240 = DIRECTION ( 'NONE',  ( 0.000000000000000000, 0.000000000000000000, 1.000000000000000000 ) ) ;
#241 = EDGE_CURVE ( 'NONE', #272, #147, #293, .T. ) ;
#242 = DIRECTION ( 'NONE',  ( 0.000000000000000000, 1.000000000000000000, 0.000000000000000000 ) ) ;
#243 = CARTESIAN_POINT ( 'NONE',  ( 5.000000000000000888, 5.000000000000001776, -5.000000000000000000 ) ) ;
#244 = CC_DESIGN_APPROVAL ( #235, ( #256 ) ) ;
#245 = ADVANCED_FACE ( 'NONE', ( #186 ), #270, .F. ) ;
#246 = ORIENTED_EDGE ( 'NONE', *, *, #161, .T. ) ;
#247 = SECURITY_CLASSIFICATION ( '', '', #276 ) ;
#248 = ORIENTED_EDGE ( 'NONE', *, *, #130, .F. ) ;
#249 = AXIS2_PLACEMENT_3D ( 'NONE', #63, #184, #240 ) ;
#250 = DATE_AND_TIME ( #42, #120 ) ;
#251 = DIRECTION ( 'NONE',  ( 1.000000000000000000, 0.000000000000000000, 0.000000000000000000 ) ) ;
#252 = DIRECTION ( 'NONE',  ( 1.000000000000000000, 0.000000000000000000, 0.000000000000000000 ) ) ;
#253 = ORIENTED_EDGE ( 'NONE', *, *, #282, .F. ) ;
#254 = CALENDAR_DATE ( 2020, 22, 12 ) ;
#255 = PLANE ( 'NONE',  #294 ) ;
#256 = PRODUCT_DEFINITION ( 'UNKNOWN', '', #164, #218 ) ;
#257 = LINE ( 'NONE', #288, #35 ) ;
#258 = APPLICATION_CONTEXT ( 'configuration controlled 3d designs of mechanical parts and assemblies' ) ;
#259 = AXIS2_PLACEMENT_3D ( 'NONE', #211, #237, #80 ) ;
#260 = ORIENTED_EDGE ( 'NONE', *, *, #282, .T. ) ;
#261 = FACE_OUTER_BOUND ( 'NONE', #68, .T. ) ;
#262 = CARTESIAN_POINT ( 'NONE',  ( 5.000000000000002665, 5.000000000000000000, 5.000000000000000000 ) ) ;
#263 = EDGE_CURVE ( 'NONE', #145, #165, #317, .T. ) ;
#264 = LINE ( 'NONE', #283, #196 ) ;
#265 = DIRECTION ( 'NONE',  ( 0.000000000000000000, -0.000000000000000000, 1.000000000000000000 ) ) ;
#266 = DIRECTION ( 'NONE',  ( -0.000000000000000000, -0.000000000000000000, -1.000000000000000000 ) ) ;
#267 = CC_DESIGN_APPROVAL ( #215, ( #247 ) ) ;
#268 = CARTESIAN_POINT ( 'NONE',  ( -4.999999999999999112, -5.000000000000000000, 5.000000000000000000 ) ) ;
#269 = CARTESIAN_POINT ( 'NONE',  ( -4.999999999999999112, 5.000000000000001776, 5.000000000000000000 ) ) ;
#270 = PLANE ( 'NONE',  #126 ) ;
#271 = ORIENTED_EDGE ( 'NONE', *, *, #130, .T. ) ;
#272 = VERTEX_POINT ( 'NONE', #269 ) ;
#273 = VECTOR ( 'NONE', #159, 1000.000000000000000 ) ;
#274 = EDGE_CURVE ( 'NONE', #19, #8, #316, .T. ) ;
#275 = ORIENTED_EDGE ( 'NONE', *, *, #135, .F. ) ;
#276 = SECURITY_CLASSIFICATION_LEVEL ( 'unclassified' ) ;
#277 = ORIENTED_EDGE ( 'NONE', *, *, #171, .F. ) ;
#278 = APPROVAL_STATUS ( 'not_yet_approved' ) ;
#279 = DIRECTION ( 'NONE',  ( 1.000000000000000000, -4.857225732735059864E-17, 0.000000000000000000 ) ) ;
#280 = PLANE ( 'NONE',  #169 ) ;
#281 = PERSON_AND_ORGANIZATION_ROLE ( 'design_supplier' ) ;
#282 = EDGE_CURVE ( 'NONE', #221, #272, #59, .T. ) ;
#283 = CARTESIAN_POINT ( 'NONE',  ( -4.999999999999999112, 5.000000000000001776, 5.000000000000000000 ) ) ;
#284 = VECTOR ( 'NONE', #58, 1000.000000000000000 ) ;
#285 = CC_DESIGN_APPROVAL ( #66, ( #164 ) ) ;
#286 = CARTESIAN_POINT ( 'NONE',  ( 0.000000000000000000, 0.000000000000000000, 5.000000000000000000 ) ) ;
#287 = ADVANCED_FACE ( 'NONE', ( #13 ), #40, .F. ) ;
#288 = CARTESIAN_POINT ( 'NONE',  ( 5.000000000000002665, 5.000000000000000000, -5.000000000000000000 ) ) ;
#289 = PLANE ( 'NONE',  #259 ) ;
#290 = VECTOR ( 'NONE', #232, 1000.000000000000000 ) ;
#291 = DIRECTION ( 'NONE',  ( -0.7071067811865475727, -0.7071067811865474617, 0.000000000000000000 ) ) ;
#292 =( NAMED_UNIT ( * ) SI_UNIT ( $, .STERADIAN. ) SOLID_ANGLE_UNIT ( ) );
#293 = LINE ( 'NONE', #136, #305 ) ;
#294 = AXIS2_PLACEMENT_3D ( 'NONE', #231, #9, #45 ) ;
#295 = MANIFOLD_SOLID_BREP ( '¾µÏ', #298 ) ;
#296 = CARTESIAN_POINT ( 'NONE',  ( -5.000000000000000888, -4.999999999999998224, -5.000000000000000000 ) ) ;
#297 = VERTEX_POINT ( 'NONE', #187 ) ;
#298 = CLOSED_SHELL ( 'NONE', ( #245, #236, #210, #91, #87 ) ) ;
#299 = ORIENTED_EDGE ( 'NONE', *, *, #274, .T. ) ;
#300 = CC_DESIGN_DATE_AND_TIME_ASSIGNMENT ( #250, #24, ( #256 ) ) ;
#301 = APPROVAL_DATE_TIME ( #176, #235 ) ;
#302 = APPROVAL_ROLE ( '' ) ;
#303 = CARTESIAN_POINT ( 'NONE',  ( -4.999999999999999112, -5.000000000000000000, 5.000000000000000000 ) ) ;
#304 = DIRECTION ( 'NONE',  ( -1.000000000000000000, 4.857225732735059864E-17, 0.000000000000000000 ) ) ;
#305 = VECTOR ( 'NONE', #219, 1000.000000000000000 ) ;
#306 = EDGE_LOOP ( 'NONE', ( #277, #248, #197, #225 ) ) ;
#307 = CARTESIAN_POINT ( 'NONE',  ( 5.000000000000002665, 5.000000000000000000, 5.000000000000000000 ) ) ;
#308 = CARTESIAN_POINT ( 'NONE',  ( 5.000000000000000888, 5.000000000000001776, 5.000000000000000000 ) ) ;
#309 = EDGE_LOOP ( 'NONE', ( #142, #188, #41, #96 ) ) ;
#310 = CARTESIAN_POINT ( 'NONE',  ( 5.000000000000000888, 5.000000000000001776, 5.000000000000000000 ) ) ;
#311 = VECTOR ( 'NONE', #36, 1000.000000000000000 ) ;
#312 = DIRECTION ( 'NONE',  ( 0.000000000000000000, -0.000000000000000000, 1.000000000000000000 ) ) ;
#313 = DIRECTION ( 'NONE',  ( -0.7071067811865475727, -0.7071067811865474617, 0.000000000000000000 ) ) ;
#314 = ADVANCED_BREP_SHAPE_REPRESENTATION ( 'BK7-LPBSC-10-780', ( #179, #295, #95 ), #37 ) ;
#315 = CARTESIAN_POINT ( 'NONE',  ( 5.000000000000000888, -5.000000000000000000, 5.000000000000000000 ) ) ;
#316 = LINE ( 'NONE', #157, #230 ) ;
#317 = LINE ( 'NONE', #296, #273 ) ;
#318 = ORIENTED_EDGE ( 'NONE', *, *, #57, .T. ) ;
#319 = APPROVAL_ROLE ( '' ) ;
#320 = EDGE_CURVE ( 'NONE', #23, #297, #107, .T. ) ;
#321 = AXIS2_PLACEMENT_3D ( 'NONE', #308, #97, #304 ) ;
ENDSEC;
END-ISO-10303-21;
